<span style='font-size: 20px;'>Introdução:</span> Introdução:

Tablatura para Violão (tabulature ou tab em inglês) é a maneira usada para redigir uma música, afim de ser tocada em instrumentos de cordas como baixos, guitarras e violões. Existe uma diferença entre as tablaturas e as partituras, onde as partituras exigem um conhecimento avançado em música e uma habilidade maior. Nada que não se possa alcançar.

Guitarristas e Violinistas iniciantes aprendem a tocar mais rapidamente usando as tablaturas, a longo prazo, com o desenvolvimento e com a prática você também consiga ler as partituras com mais facilidade.

Este artigo é para você que está aprendendo agora ou já sabe tocar violão e quer melhorar a habilidade musical. Aprender a ler tablaturas é essencial para um bom músico. Existem milhares de músicas espalhadas pela internet com tablaturas e partituras. Assim que você chegar em um nível considerado “intermediário”, terá a capacidade e pegar o seu violão, ler qualquer tablatura e sair tocando por aí!

 
<span style='font-size: 20px;'>Cordas e Tabs:</span> Cordas e Tabs:

Estas tablaturas servem para o violão tradicional de 6 cordas. Abaixo você verá 6 linhas onde representam as 6 cordas do violão. A primeira linha correspondente a letra “E” significa a primeira corda e também a última linha correspondente a letra “E” significa a última corda do violão. Vale lembrar da afinação das cordas, elas devem estar soando corretamente.

 

Afinação aberta (Open Tuning)

 
E -------------- 1ª corda
B -------------- 2ª corda
G -------------- 3ª cordas
D -------------- 4ª cordas
A -------------- 5ª cordas
E -------------- 6ª cordas

Esta afinação serve para tocar com as cordas soltas, onde se ouve um acorde maior ou menor. Também há a possibilidade de fazer acordes maiores e menores com um único dedo no formato de uma pestana sobre todas as cordas da mesma casa no braço do violão. Este tipo de afinação é bastante usada por músicos de Folk Music e Blues.

 

Afinação Drop D

 
E -------------- 1ª corda
B -------------- 2ª corda
G -------------- 3ª cordas
D -------------- 4ª cordas
A -------------- 5ª cordas
D -------------- 6ª cordas

afinação drop D que também é bastante conhecida como Dropped D ou Drop-D, é uma afinação onde a corda com o tom mais grave (E, ou mi) é afinada um tom abaixo da afinação normal, deixando as três cordas de cima mais graves. Esta afinação é bastante usada nos gêneros de Heavy Metal, Blues, Country e também no Violão Clássico.

 

Notas individuais em Tablaturas





 
Esta é uma tablatura vazia, de um violão ou guitarra de 6 cordas:

E------------------------------------------------------|
B------------------------------------------------------|
G------------------------------------------------------|
D------------------------------------------------------|
A------------------------------------------------------|
E------------------------------------------------------|

Os números que estão escritos sobre as linhas mostram em que traste as respectivas cordas devem ser pressionadas quando necessário. O número 0 indica que a corda a ser tocada deve ser solta. A leitura da tablatura deve ser feita da esquerda para a direita.

E------------------------------------------------------|
B------------------------------------------------------|
G------------------------------------------------------|
D------------------------------------------------------|
A------------------------------------------------------|
E---0--1--2--3-----------------------------------------|

O exemplo acima significa:

  • A primeira corda (de cima para baixo, a mais grossa) toca-se solta (0)
  • A mesma corda toca-se no primeiro traste (1)
  • A mesma corda toca-se no segundo traste (2)
  • A mesma corda toca-se no terceiro traste (3)
 

Notas simultâneas, acordes em tablaturas




 

2 ou mais números, uns em cima dos outros, significam que você precisa tocar todas juntas ao mesmo tempo. O exemplo abaixo é um Mi Maior (E) e um acorde em ré (D). Observe que há números que não estão presentes no acorde D.

O acorde pode ser mostrado acima dos números correspondentes.

       E               D
E ---- 0 ------------- 2 -----------------------|
B ---- 0 ------------- 3 -----------------------|
G ---- 1 ------------- 2 -----------------------|
D ---- 2 ------------- 0 -----------------------|
A ---- 2 ---------------------------------------|
E ---- 0 ---------------------------------------|

 

Tablatura, ritmo e dedilhado

 

A tablatura não indica o dedo que deve ser usado para tocar cada acorde e é nessa parte que a maioria dos iniciantes se confundem. Misturando os números e as linhas. Você precisa decidir qual o meio mais fácil e mais confortável de se tocar, posicionando cada dedo na corda correspondente. O dedilhado é parte da sua dedicação e prática como músico, onde o movimento das duas mãos deve ser mais sincronizado.

Outro fator importante e que causa bastante confusão é que a tablatura não dita o ritmo da música. Bem como o tempo que você deve transitar entre cada nota, o contrário da partitura. Então para tocar a música você deve estar ouvindo ela, ou já conhecer o seu som.

Os melhores músicos conhecem bastante o tempo das músicas que tocam e eles tem noção do tempo da troca em cada acorde.Transcritores pensativos fazer um esforço para mostrar um pouco de ritmo pelo espaçamento entre as notas mais distantes. Normalmente nota-se esta distância de tempo conforme a tablatura abaixo:

E--------0--|--------------------|---------------|
B--------0--|--------------------|---------------|
G--------1--|--------------------|---------------|
D--------3--|---------0--3-----3-|-0-------------|
A--------3--|--3---3-------------|---------------|
E--------0--|--------------------|---------------|
4     1   2  &  3 (4) &   1 

 

Entenda as notações da tablatura




 
Todas as técnicas de violão e guitarra possuem suas próprias notações (efeitos em particular):
 

Hammer-on na tablatura de violão

 
O símbolo do hammer-on é um “h”, procedido pela nota que será tocada, seguindo a tablatura abaixo.

Exemplo: Toque a corda “G” fazendo hammer-on entre a casa 7 e a casa 9. Toque na casa 7 e avance duas casas até a corda 7, conforme o exemplo abaixo:

E --------------------------------------------------|
B --------------------------------------------------|
G --------------------- 7H9 ------------------------|
D --------------------------------------------------|
A --------------------------------------------------|
E --------------------------------------------------|

 

Pull-off na tablatura de violão

 

O símbolo para um pull-off é um “p”, procedido pela nota que será tocada. O pull-off faz o contrário do hammer-on, ou seja volta a casa ao envés de avançar.

Exemplo: Toque a corda “G” fazendo um pull-off entre a casa 7 e a casa 5. Toque na casa 7 e volte duas casas até a 5, conforme o exemplo abaixo:

E ---------------------------------------------------|
B ---------------------------------------------------|
G --------------------- 7p5 -------------------------|
D ---------------------------------------------------|
A ---------------------------------------------------|
E ---------------------------------------------------|

 

Bend e Release na tablatura do violão (dobrar e soltar a corda/ nota)

 

O símbolo usado para o bend é o “b”, às vezes você pode vê-lo como “^”. Esta técnica tem por função empurrar a corda para cima com o dedo em que você está pressionando determinada nota. Quando a corda é empurrada o som transformará em uma nota com a tonalidade um pouco maior, como se você estivesse esticando a corda.

O símbolo usado para o release é o “r”. O release nada mais é que soltar o Bend, ou seja com o bend você estica a corda para cima com o dedo pressionado. O release faz a volta desta corda ao local de origem, ou a próxima nota.

Exemplo: Toque na corda S (B) fazendo o bend do traste 7, empurrando a corda até que ela tenha o som do traste 9. Ou seja você vai empurrar a corda para cima aumentando o seu agudo até que o som esteja no mesmo tom que o som emitido pela corda no traste 9. Em seguida vai usar do Release para fazer o movimento de volta do Bend.

E------------------------------------------------------|
B------7b9--9r7----------------------------------------|
G------------------------------------------------------|
D------------------------------------------------------|
A------------------------------------------------------|
E------------------------------------------------------|

 

Vibrato na tablatura de violão (vibração da corda)

 

O vibrato é simbolizada por “~” na tablatura. Ele faz o efeito de variação do tom conseguindo por meio de uma alavanca (em guitarras elétricas) ou mesmo pela pressão dos dedos sobre a corda.

E------------------------------------------------------|
B------------------------------------------------------|
G------------------------------------------------------|
D-------2--5~------------------------------------------|
A----3-------------------------------------------------|
E------------------------------------------------------|

No caso acima a ultima nota irá sofrer o vibrato (5~).
 

Slide na tablatura de violão

 

Slides são simbolizados “/” ou “”. O Slide para cima é chamado por “/”, o slide para baixo é o contrário “”. Às vezes, você vai ver “s” como símbolo de um Slide.

Exemplo: Toque na corda “G” do traste 7 até o traste 9 e em seguida volte com o slide para o traste 7, simples assim:

E ----------------------------------------------------|
B ----------------------------------------------------|
G --------------------- 7/9 7 ---------------------|
D ----------------------------------------------------|
A ----------------------------------------------------|
E ----------------------------------------------------|

 

Tap (tapping) na tablatura de violão

 

Tap é simbolizado por um “t”. Consiste basicamente em fazer com que as notas feridas soem com a mão direita apertando sobre os trastes. Comumente é usada por músicos mais velozes. Ao envés de tocar com a palheta você usa a ponta dos dedos diretamente sobre o braço do instrumento.

E------------------------------------------------------|
B----13t-----------------------------------------------|
G---------12t------------------------------------------|
D--------------12t-------------------------------------|
A------------------------------------------------------|
E------------------------------------------------------|

O exemplo acima representa o local em cada traste, pelas cordas, onde você deve aplicar o Tap (t). Lembrando que ele deve ser usado diretamente no braço do instrumento sem o uso da palheta ou dedeira.

 

Dampening (abafar) na tablatura de violão




 

Dampening é simbolizado pela letra “x.” É usado para abafar uma nota com o repouso dos dedos sobre a corda. Muitos músicos de Hard Rock e Heavy Metal usam esta técnica para deixar um som mais rasgado em suas músicas.

Exemplo: Repousar aos dedos sobre as referidas notas e fazer um som abafado representado pelo “x”.

E -------------- 3-x-x ------------------------------|
B -------------- 3-x-x ------------------------------|
G -------------- 4-x-x ------------------------------|
D -------------- 5-x-x ------------------------------|
A -------------- 5-x-x ------------------------------|
E -------------- 3-x-x ------------------------------|

 

<span style='font-size: 20px;'>Guia de referência para o violão / guitarra:</span> Guia de referência para o violão / guitarra:

Veja agora uma lista simplificada com as breviações das notações músicais, tanto para violão quanto guitarra. Guarde isto pois será muito útil no seu desenvolvimento como músico 🙂

 

  • h = Hammer-on
  • p = Pull-off
  • / = Slide para cima
  • = Slide para baixo
  • s = Auxiliar para slide
  • b = Bend
  • r = Bend Inverso / Release
  • t = Tap ou Tapping
  • x = Dampening / Abafar
  • ~ Ou v = Vibrato
  • = Harmônica
  • P. M. = Palm muting
Nos vemos em breve amigo, continue acompanhando nossas lições grátis no capítulo 01.